Good Riddance - Hades

This guide includes the picking patterns I use to play Good Riddance from Hades. See here for chords/lyrics.

Let the strings of the ukulele GCEA be 1234.

Verse

    Bm      A   Em      D    A    G
A#|-2---5---0--0-2---2---0--0-0--0-2--2-
F |-2-2---2-0--0-3---3---2--2-0--0-3--3-
C#|-2-------1----4-4---4-2----1----2----
G#|-4-------2----0-------2----2----0----

    Bm      A   Em      D    C    Bm
A#|-2---5---0--0-2---2---0--0-3--3-2--
F |-2-2---2-0--0-3---3---2--2-0--0-2--
C#|-2-------1----4-4---4-2----0----2--
G#|-4-------2----0-------2----0----4--

Chorus

The pattern is (1234)-3-4-3.

    A       G       F#m     G       F#7
A#|-0---0---2---2---0---0---2---2---4---
F |-0-0---0-3-3---3-2-2---2-3-3---3-2---
C#|-1-------2-------1-------2-------4---
G#|-2-------0-------2-------0-------3---

Bridge

For Bm, D: The pattern is (1234)-2-(34)-2.
For C#dim: The pattern is (1234)-2-3-2. You don’t play the A string.

    Bm      C#dim   D       C#dim
A#|-2---2-----------0---0-----------
F |-2---2---0---0---2---2---0---0---
C#|-2-2---2-1-1---1-2-2---2-1-1---1-
G#|-4-------0-------2-------0-------